ISO-10303-21;
HEADER;
/* Generated by software containing ST-Developer
 * from STEP Tools, Inc. (www.steptools.com) 
 */

FILE_DESCRIPTION(
/* description */ (''),
/* implementation_level */ '2;1');

FILE_NAME(
/* name */ 'AKB_Feet.step',
/* time_stamp */ '2023-07-12T16:13:16+01:00',
/* author */ (''),
/* organization */ (''),
/* preprocessor_version */ 'ST-DEVELOPER v19.2',
/* originating_system */ 'Autodesk Translation Framework v11.17.0.187',

/* authorisation */ '');

FILE_SCHEMA (('AUTOMOTIVE_DESIGN { 1 0 10303 214 3 1 1 }'));
ENDSEC;

DATA;
#10=MECHANICAL_DESIGN_GEOMETRIC_PRESENTATION_REPRESENTATION('',(#17),#541);
#11=ITEM_DEFINED_TRANSFORMATION($,$,#309,#348);
#12=(
REPRESENTATION_RELATIONSHIP($,$,#552,#551)
REPRESENTATION_RELATIONSHIP_WITH_TRANSFORMATION(#11)
SHAPE_REPRESENTATION_RELATIONSHIP()
);
#13=CONTEXT_DEPENDENT_SHAPE_REPRESENTATION(#12,#550);
#14=NEXT_ASSEMBLY_USAGE_OCCURRENCE('Component1:1','Component1:1',
'Component1:1',#554,#555,'Component1:1');
#15=SHAPE_REPRESENTATION_RELATIONSHIP('SRR','None',#552,#16);
#16=ADVANCED_BREP_SHAPE_REPRESENTATION('',(#18),#540);
#17=STYLED_ITEM('',(#566),#18);
#18=MANIFOLD_SOLID_BREP('Body1',#295);
#19=PLANE('',#336);
#20=PLANE('',#339);
#21=PLANE('',#340);
#22=PLANE('',#343);
#23=PLANE('',#346);
#24=PLANE('',#347);
#25=TOROIDAL_SURFACE('',#313,0.75,0.5);
#26=TOROIDAL_SURFACE('',#319,0.75,0.5);
#27=TOROIDAL_SURFACE('',#325,0.75,0.5);
#28=TOROIDAL_SURFACE('',#331,0.75,0.5);
#29=FACE_OUTER_BOUND('',#47,.T.);
#30=FACE_OUTER_BOUND('',#48,.T.);
#31=FACE_OUTER_BOUND('',#49,.T.);
#32=FACE_OUTER_BOUND('',#50,.T.);
#33=FACE_OUTER_BOUND('',#51,.T.);
#34=FACE_OUTER_BOUND('',#52,.T.);
#35=FACE_OUTER_BOUND('',#53,.T.);
#36=FACE_OUTER_BOUND('',#54,.T.);
#37=FACE_OUTER_BOUND('',#55,.T.);
#38=FACE_OUTER_BOUND('',#56,.T.);
#39=FACE_OUTER_BOUND('',#57,.T.);
#40=FACE_OUTER_BOUND('',#58,.T.);
#41=FACE_OUTER_BOUND('',#59,.T.);
#42=FACE_OUTER_BOUND('',#60,.T.);
#43=FACE_OUTER_BOUND('',#61,.T.);
#44=FACE_OUTER_BOUND('',#62,.T.);
#45=FACE_OUTER_BOUND('',#63,.T.);
#46=FACE_OUTER_BOUND('',#64,.T.);
#47=EDGE_LOOP('',(#189,#190,#191,#192));
#48=EDGE_LOOP('',(#193,#194,#195,#196));
#49=EDGE_LOOP('',(#197,#198,#199,#200));
#50=EDGE_LOOP('',(#201,#202,#203,#204));
#51=EDGE_LOOP('',(#205,#206,#207,#208));
#52=EDGE_LOOP('',(#209,#210,#211,#212));
#53=EDGE_LOOP('',(#213,#214,#215,#216));
#54=EDGE_LOOP('',(#217,#218,#219,#220));
#55=EDGE_LOOP('',(#221,#222,#223,#224));
#56=EDGE_LOOP('',(#225,#226,#227,#228));
#57=EDGE_LOOP('',(#229,#230,#231,#232));
#58=EDGE_LOOP('',(#233,#234,#235,#236));
#59=EDGE_LOOP('',(#237,#238,#239,#240,#241,#242,#243,#244));
#60=EDGE_LOOP('',(#245,#246,#247,#248));
#61=EDGE_LOOP('',(#249,#250,#251,#252));
#62=EDGE_LOOP('',(#253,#254,#255,#256));
#63=EDGE_LOOP('',(#257,#258,#259,#260));
#64=EDGE_LOOP('',(#261,#262,#263,#264,#265,#266,#267,#268));
#65=LINE('',#458,#85);
#66=LINE('',#461,#86);
#67=LINE('',#472,#87);
#68=LINE('',#473,#88);
#69=LINE('',#484,#89);
#70=LINE('',#485,#90);
#71=LINE('',#496,#91);
#72=LINE('',#497,#92);
#73=LINE('',#503,#93);
#74=LINE('',#506,#94);
#75=LINE('',#509,#95);
#76=LINE('',#510,#96);
#77=LINE('',#513,#97);
#78=LINE('',#517,#98);
#79=LINE('',#518,#99);
#80=LINE('',#522,#100);
#81=LINE('',#526,#101);
#82=LINE('',#527,#102);
#83=LINE('',#530,#103);
#84=LINE('',#533,#104);
#85=VECTOR('',#357,10.);
#86=VECTOR('',#360,10.);
#87=VECTOR('',#373,10.);
#88=VECTOR('',#374,10.);
#89=VECTOR('',#387,10.);
#90=VECTOR('',#388,10.);
#91=VECTOR('',#401,10.);
#92=VECTOR('',#402,10.);
#93=VECTOR('',#411,1.25);
#94=VECTOR('',#414,1.25);
#95=VECTOR('',#417,1.25);
#96=VECTOR('',#418,10.);
#97=VECTOR('',#421,1.25);
#98=VECTOR('',#426,1.25);
#99=VECTOR('',#427,10.);
#100=VECTOR('',#432,10.);
#101=VECTOR('',#437,1.25);
#102=VECTOR('',#438,10.);
#103=VECTOR('',#441,10.);
#104=VECTOR('',#446,10.);
#105=CIRCLE('',#311,0.499999999999998);
#106=CIRCLE('',#312,0.500000000000007);
#107=CIRCLE('',#314,0.5);
#108=CIRCLE('',#315,0.75);
#109=CIRCLE('',#316,1.25);
#110=CIRCLE('',#318,0.500000000000003);
#111=CIRCLE('',#320,0.500000000000007);
#112=CIRCLE('',#321,0.75);
#113=CIRCLE('',#322,1.25);
#114=CIRCLE('',#324,0.500000000000007);
#115=CIRCLE('',#326,0.5);
#116=CIRCLE('',#327,0.75);
#117=CIRCLE('',#328,1.25);
#118=CIRCLE('',#330,0.5);
#119=CIRCLE('',#332,0.75);
#120=CIRCLE('',#333,1.25);
#121=CIRCLE('',#335,1.25);
#122=CIRCLE('',#338,1.25);
#123=CIRCLE('',#342,1.25);
#124=CIRCLE('',#345,1.25);
#125=VERTEX_POINT('',#454);
#126=VERTEX_POINT('',#455);
#127=VERTEX_POINT('',#457);
#128=VERTEX_POINT('',#459);
#129=VERTEX_POINT('',#463);
#130=VERTEX_POINT('',#464);
#131=VERTEX_POINT('',#469);
#132=VERTEX_POINT('',#470);
#133=VERTEX_POINT('',#475);
#134=VERTEX_POINT('',#476);
#135=VERTEX_POINT('',#481);
#136=VERTEX_POINT('',#482);
#137=VERTEX_POINT('',#487);
#138=VERTEX_POINT('',#488);
#139=VERTEX_POINT('',#493);
#140=VERTEX_POINT('',#494);
#141=VERTEX_POINT('',#502);
#142=VERTEX_POINT('',#504);
#143=VERTEX_POINT('',#508);
#144=VERTEX_POINT('',#512);
#145=VERTEX_POINT('',#516);
#146=VERTEX_POINT('',#521);
#147=VERTEX_POINT('',#525);
#148=VERTEX_POINT('',#529);
#149=EDGE_CURVE('',#125,#126,#105,.T.);
#150=EDGE_CURVE('',#126,#127,#65,.T.);
#151=EDGE_CURVE('',#127,#128,#106,.T.);
#152=EDGE_CURVE('',#128,#125,#66,.T.);
#153=EDGE_CURVE('',#129,#130,#107,.T.);
#154=EDGE_CURVE('',#130,#128,#108,.T.);
#155=EDGE_CURVE('',#127,#129,#109,.T.);
#156=EDGE_CURVE('',#131,#132,#110,.T.);
#157=EDGE_CURVE('',#132,#130,#67,.T.);
#158=EDGE_CURVE('',#129,#131,#68,.T.);
#159=EDGE_CURVE('',#133,#134,#111,.T.);
#160=EDGE_CURVE('',#134,#132,#112,.T.);
#161=EDGE_CURVE('',#131,#133,#113,.T.);
#162=EDGE_CURVE('',#135,#136,#114,.T.);
#163=EDGE_CURVE('',#136,#134,#69,.T.);
#164=EDGE_CURVE('',#133,#135,#70,.T.);
#165=EDGE_CURVE('',#137,#138,#115,.T.);
#166=EDGE_CURVE('',#138,#136,#116,.T.);
#167=EDGE_CURVE('',#135,#137,#117,.T.);
#168=EDGE_CURVE('',#139,#140,#118,.T.);
#169=EDGE_CURVE('',#140,#138,#71,.T.);
#170=EDGE_CURVE('',#137,#139,#72,.T.);
#171=EDGE_CURVE('',#125,#140,#119,.T.);
#172=EDGE_CURVE('',#139,#126,#120,.T.);
#173=EDGE_CURVE('',#141,#131,#73,.T.);
#174=EDGE_CURVE('',#141,#142,#121,.T.);
#175=EDGE_CURVE('',#142,#133,#74,.T.);
#176=EDGE_CURVE('',#143,#129,#75,.T.);
#177=EDGE_CURVE('',#141,#143,#76,.T.);
#178=EDGE_CURVE('',#144,#127,#77,.T.);
#179=EDGE_CURVE('',#144,#143,#122,.T.);
#180=EDGE_CURVE('',#145,#126,#78,.T.);
#181=EDGE_CURVE('',#144,#145,#79,.T.);
#182=EDGE_CURVE('',#146,#139,#80,.T.);
#183=EDGE_CURVE('',#146,#145,#123,.T.);
#184=EDGE_CURVE('',#147,#137,#81,.T.);
#185=EDGE_CURVE('',#146,#147,#82,.T.);
#186=EDGE_CURVE('',#148,#135,#83,.T.);
#187=EDGE_CURVE('',#148,#147,#124,.T.);
#188=EDGE_CURVE('',#148,#142,#84,.T.);
#189=ORIENTED_EDGE('',*,*,#149,.T.);
#190=ORIENTED_EDGE('',*,*,#150,.T.);
#191=ORIENTED_EDGE('',*,*,#151,.T.);
#192=ORIENTED_EDGE('',*,*,#152,.T.);
#193=ORIENTED_EDGE('',*,*,#153,.T.);
#194=ORIENTED_EDGE('',*,*,#154,.T.);
#195=ORIENTED_EDGE('',*,*,#151,.F.);
#196=ORIENTED_EDGE('',*,*,#155,.T.);
#197=ORIENTED_EDGE('',*,*,#156,.T.);
#198=ORIENTED_EDGE('',*,*,#157,.T.);
#199=ORIENTED_EDGE('',*,*,#153,.F.);
#200=ORIENTED_EDGE('',*,*,#158,.T.);
#201=ORIENTED_EDGE('',*,*,#159,.T.);
#202=ORIENTED_EDGE('',*,*,#160,.T.);
#203=ORIENTED_EDGE('',*,*,#156,.F.);
#204=ORIENTED_EDGE('',*,*,#161,.T.);
#205=ORIENTED_EDGE('',*,*,#162,.T.);
#206=ORIENTED_EDGE('',*,*,#163,.T.);
#207=ORIENTED_EDGE('',*,*,#159,.F.);
#208=ORIENTED_EDGE('',*,*,#164,.T.);
#209=ORIENTED_EDGE('',*,*,#165,.T.);
#210=ORIENTED_EDGE('',*,*,#166,.T.);
#211=ORIENTED_EDGE('',*,*,#162,.F.);
#212=ORIENTED_EDGE('',*,*,#167,.T.);
#213=ORIENTED_EDGE('',*,*,#168,.T.);
#214=ORIENTED_EDGE('',*,*,#169,.T.);
#215=ORIENTED_EDGE('',*,*,#165,.F.);
#216=ORIENTED_EDGE('',*,*,#170,.T.);
#217=ORIENTED_EDGE('',*,*,#149,.F.);
#218=ORIENTED_EDGE('',*,*,#171,.T.);
#219=ORIENTED_EDGE('',*,*,#168,.F.);
#220=ORIENTED_EDGE('',*,*,#172,.T.);
#221=ORIENTED_EDGE('',*,*,#161,.F.);
#222=ORIENTED_EDGE('',*,*,#173,.F.);
#223=ORIENTED_EDGE('',*,*,#174,.T.);
#224=ORIENTED_EDGE('',*,*,#175,.T.);
#225=ORIENTED_EDGE('',*,*,#158,.F.);
#226=ORIENTED_EDGE('',*,*,#176,.F.);
#227=ORIENTED_EDGE('',*,*,#177,.F.);
#228=ORIENTED_EDGE('',*,*,#173,.T.);
#229=ORIENTED_EDGE('',*,*,#155,.F.);
#230=ORIENTED_EDGE('',*,*,#178,.F.);
#231=ORIENTED_EDGE('',*,*,#179,.T.);
#232=ORIENTED_EDGE('',*,*,#176,.T.);
#233=ORIENTED_EDGE('',*,*,#150,.F.);
#234=ORIENTED_EDGE('',*,*,#180,.F.);
#235=ORIENTED_EDGE('',*,*,#181,.F.);
#236=ORIENTED_EDGE('',*,*,#178,.T.);
#237=ORIENTED_EDGE('',*,*,#152,.F.);
#238=ORIENTED_EDGE('',*,*,#154,.F.);
#239=ORIENTED_EDGE('',*,*,#157,.F.);
#240=ORIENTED_EDGE('',*,*,#160,.F.);
#241=ORIENTED_EDGE('',*,*,#163,.F.);
#242=ORIENTED_EDGE('',*,*,#166,.F.);
#243=ORIENTED_EDGE('',*,*,#169,.F.);
#244=ORIENTED_EDGE('',*,*,#171,.F.);
#245=ORIENTED_EDGE('',*,*,#172,.F.);
#246=ORIENTED_EDGE('',*,*,#182,.F.);
#247=ORIENTED_EDGE('',*,*,#183,.T.);
#248=ORIENTED_EDGE('',*,*,#180,.T.);
#249=ORIENTED_EDGE('',*,*,#170,.F.);
#250=ORIENTED_EDGE('',*,*,#184,.F.);
#251=ORIENTED_EDGE('',*,*,#185,.F.);
#252=ORIENTED_EDGE('',*,*,#182,.T.);
#253=ORIENTED_EDGE('',*,*,#167,.F.);
#254=ORIENTED_EDGE('',*,*,#186,.F.);
#255=ORIENTED_EDGE('',*,*,#187,.T.);
#256=ORIENTED_EDGE('',*,*,#184,.T.);
#257=ORIENTED_EDGE('',*,*,#164,.F.);
#258=ORIENTED_EDGE('',*,*,#175,.F.);
#259=ORIENTED_EDGE('',*,*,#188,.F.);
#260=ORIENTED_EDGE('',*,*,#186,.T.);
#261=ORIENTED_EDGE('',*,*,#183,.F.);
#262=ORIENTED_EDGE('',*,*,#185,.T.);
#263=ORIENTED_EDGE('',*,*,#187,.F.);
#264=ORIENTED_EDGE('',*,*,#188,.T.);
#265=ORIENTED_EDGE('',*,*,#174,.F.);
#266=ORIENTED_EDGE('',*,*,#177,.T.);
#267=ORIENTED_EDGE('',*,*,#179,.F.);
#268=ORIENTED_EDGE('',*,*,#181,.T.);
#269=CYLINDRICAL_SURFACE('',#310,0.5);
#270=CYLINDRICAL_SURFACE('',#317,0.5);
#271=CYLINDRICAL_SURFACE('',#323,0.5);
#272=CYLINDRICAL_SURFACE('',#329,0.5);
#273=CYLINDRICAL_SURFACE('',#334,1.25);
#274=CYLINDRICAL_SURFACE('',#337,1.25);
#275=CYLINDRICAL_SURFACE('',#341,1.25);
#276=CYLINDRICAL_SURFACE('',#344,1.25);
#277=ADVANCED_FACE('',(#29),#269,.T.);
#278=ADVANCED_FACE('',(#30),#25,.T.);
#279=ADVANCED_FACE('',(#31),#270,.T.);
#280=ADVANCED_FACE('',(#32),#26,.T.);
#281=ADVANCED_FACE('',(#33),#271,.T.);
#282=ADVANCED_FACE('',(#34),#27,.T.);
#283=ADVANCED_FACE('',(#35),#272,.T.);
#284=ADVANCED_FACE('',(#36),#28,.T.);
#285=ADVANCED_FACE('',(#37),#273,.T.);
#286=ADVANCED_FACE('',(#38),#19,.T.);
#287=ADVANCED_FACE('',(#39),#274,.T.);
#288=ADVANCED_FACE('',(#40),#20,.T.);
#289=ADVANCED_FACE('',(#41),#21,.F.);
#290=ADVANCED_FACE('',(#42),#275,.T.);
#291=ADVANCED_FACE('',(#43),#22,.T.);
#292=ADVANCED_FACE('',(#44),#276,.T.);
#293=ADVANCED_FACE('',(#45),#23,.T.);
#294=ADVANCED_FACE('',(#46),#24,.T.);
#295=CLOSED_SHELL('',(#277,#278,#279,#280,#281,#282,#283,#284,#285,#286,
#287,#288,#289,#290,#291,#292,#293,#294));
#296=DERIVED_UNIT_ELEMENT(#298,1.);
#297=DERIVED_UNIT_ELEMENT(#543,-3.);
#298=(
MASS_UNIT()
NAMED_UNIT(*)
SI_UNIT(.KILO.,.GRAM.)
);
#299=DERIVED_UNIT((#296,#297));
#300=MEASURE_REPRESENTATION_ITEM('density measure',
POSITIVE_RATIO_MEASURE(7850.),#299);
#301=PROPERTY_DEFINITION_REPRESENTATION(#306,#303);
#302=PROPERTY_DEFINITION_REPRESENTATION(#307,#304);
#303=REPRESENTATION('material name',(#305),#540);
#304=REPRESENTATION('density',(#300),#540);
#305=DESCRIPTIVE_REPRESENTATION_ITEM('Steel','Steel');
#306=PROPERTY_DEFINITION('material property','material name',#555);
#307=PROPERTY_DEFINITION('material property','density of part',#555);
#308=AXIS2_PLACEMENT_3D('placement',#451,#349,#350);
#309=AXIS2_PLACEMENT_3D('placement',#452,#351,#352);
#310=AXIS2_PLACEMENT_3D('',#453,#353,#354);
#311=AXIS2_PLACEMENT_3D('',#456,#355,#356);
#312=AXIS2_PLACEMENT_3D('',#460,#358,#359);
#313=AXIS2_PLACEMENT_3D('',#462,#361,#362);
#314=AXIS2_PLACEMENT_3D('',#465,#363,#364);
#315=AXIS2_PLACEMENT_3D('',#466,#365,#366);
#316=AXIS2_PLACEMENT_3D('',#467,#367,#368);
#317=AXIS2_PLACEMENT_3D('',#468,#369,#370);
#318=AXIS2_PLACEMENT_3D('',#471,#371,#372);
#319=AXIS2_PLACEMENT_3D('',#474,#375,#376);
#320=AXIS2_PLACEMENT_3D('',#477,#377,#378);
#321=AXIS2_PLACEMENT_3D('',#478,#379,#380);
#322=AXIS2_PLACEMENT_3D('',#479,#381,#382);
#323=AXIS2_PLACEMENT_3D('',#480,#383,#384);
#324=AXIS2_PLACEMENT_3D('',#483,#385,#386);
#325=AXIS2_PLACEMENT_3D('',#486,#389,#390);
#326=AXIS2_PLACEMENT_3D('',#489,#391,#392);
#327=AXIS2_PLACEMENT_3D('',#490,#393,#394);
#328=AXIS2_PLACEMENT_3D('',#491,#395,#396);
#329=AXIS2_PLACEMENT_3D('',#492,#397,#398);
#330=AXIS2_PLACEMENT_3D('',#495,#399,#400);
#331=AXIS2_PLACEMENT_3D('',#498,#403,#404);
#332=AXIS2_PLACEMENT_3D('',#499,#405,#406);
#333=AXIS2_PLACEMENT_3D('',#500,#407,#408);
#334=AXIS2_PLACEMENT_3D('',#501,#409,#410);
#335=AXIS2_PLACEMENT_3D('',#505,#412,#413);
#336=AXIS2_PLACEMENT_3D('',#507,#415,#416);
#337=AXIS2_PLACEMENT_3D('',#511,#419,#420);
#338=AXIS2_PLACEMENT_3D('',#514,#422,#423);
#339=AXIS2_PLACEMENT_3D('',#515,#424,#425);
#340=AXIS2_PLACEMENT_3D('',#519,#428,#429);
#341=AXIS2_PLACEMENT_3D('',#520,#430,#431);
#342=AXIS2_PLACEMENT_3D('',#523,#433,#434);
#343=AXIS2_PLACEMENT_3D('',#524,#435,#436);
#344=AXIS2_PLACEMENT_3D('',#528,#439,#440);
#345=AXIS2_PLACEMENT_3D('',#531,#442,#443);
#346=AXIS2_PLACEMENT_3D('',#532,#444,#445);
#347=AXIS2_PLACEMENT_3D('',#534,#447,#448);
#348=AXIS2_PLACEMENT_3D('',#535,#449,#450);
#349=DIRECTION('axis',(0.,0.,1.));
#350=DIRECTION('refdir',(1.,0.,0.));
#351=DIRECTION('axis',(0.,0.,1.));
#352=DIRECTION('refdir',(1.,0.,0.));
#353=DIRECTION('center_axis',(-1.,0.,0.));
#354=DIRECTION('ref_axis',(0.,-0.707106781186554,-0.707106781186541));
#355=DIRECTION('center_axis',(-1.,-4.44089209850056E-15,0.));
#356=DIRECTION('ref_axis',(0.,0.,-1.));
#357=DIRECTION('',(-1.,0.,0.));
#358=DIRECTION('center_axis',(1.,-8.32667268468856E-15,0.));
#359=DIRECTION('ref_axis',(-8.32667268468856E-15,-1.,0.));
#360=DIRECTION('',(1.,0.,0.));
#361=DIRECTION('center_axis',(0.,0.,-1.));
#362=DIRECTION('ref_axis',(-1.,0.,0.));
#363=DIRECTION('center_axis',(0.,-1.,0.));
#364=DIRECTION('ref_axis',(-1.,0.,0.));
#365=DIRECTION('center_axis',(0.,0.,1.));
#366=DIRECTION('ref_axis',(-0.707106781186545,-0.70710678118655,0.));
#367=DIRECTION('center_axis',(0.,0.,-1.));
#368=DIRECTION('ref_axis',(-0.707106781186545,-0.70710678118655,0.));
#369=DIRECTION('center_axis',(0.,1.,0.));
#370=DIRECTION('ref_axis',(-0.707106781186551,0.,-0.707106781186544));
#371=DIRECTION('center_axis',(0.,-1.,0.));
#372=DIRECTION('ref_axis',(-1.,0.,0.));
#373=DIRECTION('',(0.,-1.,0.));
#374=DIRECTION('',(0.,1.,0.));
#375=DIRECTION('center_axis',(0.,0.,-1.));
#376=DIRECTION('ref_axis',(-1.,0.,0.));
#377=DIRECTION('center_axis',(-1.,0.,0.));
#378=DIRECTION('ref_axis',(0.,1.,0.));
#379=DIRECTION('center_axis',(0.,0.,1.));
#380=DIRECTION('ref_axis',(-0.707106781186545,0.70710678118655,0.));
#381=DIRECTION('center_axis',(0.,0.,-1.));
#382=DIRECTION('ref_axis',(-0.707106781186545,0.70710678118655,0.));
#383=DIRECTION('center_axis',(1.,0.,0.));
#384=DIRECTION('ref_axis',(0.,0.707106781186554,-0.707106781186541));
#385=DIRECTION('center_axis',(-1.,4.44089209850056E-15,0.));
#386=DIRECTION('ref_axis',(4.44089209850056E-15,1.,0.));
#387=DIRECTION('',(-1.,0.,0.));
#388=DIRECTION('',(1.,0.,0.));
#389=DIRECTION('center_axis',(0.,0.,-1.));
#390=DIRECTION('ref_axis',(-1.,0.,0.));
#391=DIRECTION('center_axis',(0.,1.,0.));
#392=DIRECTION('ref_axis',(1.,0.,0.));
#393=DIRECTION('center_axis',(0.,0.,1.));
#394=DIRECTION('ref_axis',(0.707106781186545,0.70710678118655,0.));
#395=DIRECTION('center_axis',(0.,0.,-1.));
#396=DIRECTION('ref_axis',(0.707106781186545,0.70710678118655,0.));
#397=DIRECTION('center_axis',(0.,-1.,0.));
#398=DIRECTION('ref_axis',(0.707106781186548,0.,-0.707106781186548));
#399=DIRECTION('center_axis',(0.,1.,0.));
#400=DIRECTION('ref_axis',(1.,0.,0.));
#401=DIRECTION('',(0.,1.,0.));
#402=DIRECTION('',(0.,-1.,0.));
#403=DIRECTION('center_axis',(0.,0.,-1.));
#404=DIRECTION('ref_axis',(-1.,0.,0.));
#405=DIRECTION('center_axis',(0.,0.,1.));
#406=DIRECTION('ref_axis',(0.707106781186545,-0.70710678118655,0.));
#407=DIRECTION('center_axis',(0.,0.,-1.));
#408=DIRECTION('ref_axis',(0.707106781186545,-0.70710678118655,0.));
#409=DIRECTION('center_axis',(0.,0.,-1.));
#410=DIRECTION('ref_axis',(-0.707106781186548,0.707106781186548,0.));
#411=DIRECTION('',(0.,0.,-1.));
#412=DIRECTION('center_axis',(0.,0.,-1.));
#413=DIRECTION('ref_axis',(-0.707106781186548,0.707106781186548,0.));
#414=DIRECTION('',(0.,0.,-1.));
#415=DIRECTION('center_axis',(-1.,0.,0.));
#416=DIRECTION('ref_axis',(0.,1.,0.));
#417=DIRECTION('',(0.,0.,-1.));
#418=DIRECTION('',(0.,-1.,0.));
#419=DIRECTION('center_axis',(0.,0.,-1.));
#420=DIRECTION('ref_axis',(-0.707106781186548,-0.707106781186548,0.));
#421=DIRECTION('',(0.,0.,-1.));
#422=DIRECTION('center_axis',(0.,0.,-1.));
#423=DIRECTION('ref_axis',(-0.707106781186548,-0.707106781186548,0.));
#424=DIRECTION('center_axis',(0.,-1.,0.));
#425=DIRECTION('ref_axis',(-1.,0.,0.));
#426=DIRECTION('',(0.,0.,-1.));
#427=DIRECTION('',(1.,0.,0.));
#428=DIRECTION('center_axis',(0.,0.,1.));
#429=DIRECTION('ref_axis',(1.,0.,0.));
#430=DIRECTION('center_axis',(0.,0.,-1.));
#431=DIRECTION('ref_axis',(0.707106781186548,-0.707106781186548,0.));
#432=DIRECTION('',(0.,0.,-1.));
#433=DIRECTION('center_axis',(0.,0.,-1.));
#434=DIRECTION('ref_axis',(0.707106781186548,-0.707106781186548,0.));
#435=DIRECTION('center_axis',(1.,0.,0.));
#436=DIRECTION('ref_axis',(0.,-1.,0.));
#437=DIRECTION('',(0.,0.,-1.));
#438=DIRECTION('',(0.,1.,0.));
#439=DIRECTION('center_axis',(0.,0.,-1.));
#440=DIRECTION('ref_axis',(0.707106781186548,0.707106781186548,0.));
#441=DIRECTION('',(0.,0.,-1.));
#442=DIRECTION('center_axis',(0.,0.,-1.));
#443=DIRECTION('ref_axis',(0.707106781186548,0.707106781186548,0.));
#444=DIRECTION('center_axis',(0.,1.,0.));
#445=DIRECTION('ref_axis',(1.,0.,0.));
#446=DIRECTION('',(-1.,0.,0.));
#447=DIRECTION('center_axis',(0.,0.,1.));
#448=DIRECTION('ref_axis',(1.,0.,0.));
#449=DIRECTION('',(0.,1.19348975147204E-15,-1.));
#450=DIRECTION('',(1.,0.,0.));
#451=CARTESIAN_POINT('',(0.,0.,0.));
#452=CARTESIAN_POINT('',(0.,0.,0.));
#453=CARTESIAN_POINT('Origin',(81.3375,-116.247716455597,-23.994678616503));
#454=CARTESIAN_POINT('',(10.275,-116.247716455597,-24.494678616503));
#455=CARTESIAN_POINT('',(10.275,-116.747716455597,-23.994678616503));
#456=CARTESIAN_POINT('Origin',(10.275,-116.247716455597,-23.994678616503));
#457=CARTESIAN_POINT('',(-2.22499999999997,-116.747716455597,-23.994678616503));
#458=CARTESIAN_POINT('',(81.3375,-116.747716455597,-23.994678616503));
#459=CARTESIAN_POINT('',(-2.22499999999997,-116.247716455597,-24.494678616503));
#460=CARTESIAN_POINT('Origin',(-2.22499999999997,-116.247716455597,-23.994678616503));
#461=CARTESIAN_POINT('',(81.3375,-116.247716455597,-24.494678616503));
#462=CARTESIAN_POINT('Origin',(-2.22499999999997,-115.497716455597,-23.994678616503));
#463=CARTESIAN_POINT('',(-3.47499999999997,-115.497716455597,-23.994678616503));
#464=CARTESIAN_POINT('',(-2.97499999999997,-115.497716455597,-24.494678616503));
#465=CARTESIAN_POINT('Origin',(-2.97499999999997,-115.497716455597,-23.994678616503));
#466=CARTESIAN_POINT('Origin',(-2.22499999999997,-115.497716455597,-24.494678616503));
#467=CARTESIAN_POINT('Origin',(-2.22499999999997,-115.497716455597,-23.994678616503));
#468=CARTESIAN_POINT('Origin',(-2.97499999999997,-87.6925158805509,-23.994678616503));
#469=CARTESIAN_POINT('',(-3.47499999999997,-112.997716455597,-23.994678616503));
#470=CARTESIAN_POINT('',(-2.97499999999997,-112.997716455597,-24.494678616503));
#471=CARTESIAN_POINT('Origin',(-2.97499999999997,-112.997716455597,-23.994678616503));
#472=CARTESIAN_POINT('',(-2.97499999999997,-87.6925158805509,-24.494678616503));
#473=CARTESIAN_POINT('',(-3.47499999999997,-87.6925158805509,-23.994678616503));
#474=CARTESIAN_POINT('Origin',(-2.22499999999997,-112.997716455597,-23.994678616503));
#475=CARTESIAN_POINT('',(-2.22499999999997,-111.747716455597,-23.994678616503));
#476=CARTESIAN_POINT('',(-2.22499999999997,-112.247716455597,-24.494678616503));
#477=CARTESIAN_POINT('Origin',(-2.22499999999997,-112.247716455597,-23.994678616503));
#478=CARTESIAN_POINT('Origin',(-2.22499999999997,-112.997716455597,-24.494678616503));
#479=CARTESIAN_POINT('Origin',(-2.22499999999997,-112.997716455597,-23.994678616503));
#480=CARTESIAN_POINT('Origin',(75.0875,-112.247716455597,-23.994678616503));
#481=CARTESIAN_POINT('',(10.275,-111.747716455597,-23.994678616503));
#482=CARTESIAN_POINT('',(10.275,-112.247716455597,-24.494678616503));
#483=CARTESIAN_POINT('Origin',(10.275,-112.247716455597,-23.994678616503));
#484=CARTESIAN_POINT('',(75.0875,-112.247716455597,-24.494678616503));
#485=CARTESIAN_POINT('',(75.0875,-111.747716455597,-23.994678616503));
#486=CARTESIAN_POINT('Origin',(10.275,-112.997716455597,-23.994678616503));
#487=CARTESIAN_POINT('',(11.525,-112.997716455597,-23.994678616503));
#488=CARTESIAN_POINT('',(11.025,-112.997716455597,-24.494678616503));
#489=CARTESIAN_POINT('Origin',(11.025,-112.997716455597,-23.994678616503));
#490=CARTESIAN_POINT('Origin',(10.275,-112.997716455597,-24.494678616503));
#491=CARTESIAN_POINT('Origin',(10.275,-112.997716455597,-23.994678616503));
#492=CARTESIAN_POINT('Origin',(11.025,-86.4425158805509,-23.994678616503));
#493=CARTESIAN_POINT('',(11.525,-115.497716455597,-23.994678616503));
#494=CARTESIAN_POINT('',(11.025,-115.497716455597,-24.494678616503));
#495=CARTESIAN_POINT('Origin',(11.025,-115.497716455597,-23.994678616503));
#496=CARTESIAN_POINT('',(11.025,-86.4425158805509,-24.494678616503));
#497=CARTESIAN_POINT('',(11.525,-86.4425158805509,-23.994678616503));
#498=CARTESIAN_POINT('Origin',(10.275,-115.497716455597,-23.994678616503));
#499=CARTESIAN_POINT('Origin',(10.275,-115.497716455597,-24.494678616503));
#500=CARTESIAN_POINT('Origin',(10.275,-115.497716455597,-23.994678616503));
#501=CARTESIAN_POINT('Origin',(-2.22499999999997,-112.997716455597,-22.994678616503));
#502=CARTESIAN_POINT('',(-3.47499999999997,-112.997716455597,-22.794678616503));
#503=CARTESIAN_POINT('',(-3.47499999999997,-112.997716455597,-22.994678616503));
#504=CARTESIAN_POINT('',(-2.22499999999997,-111.747716455597,-22.794678616503));
#505=CARTESIAN_POINT('Origin',(-2.22499999999997,-112.997716455597,-22.794678616503));
#506=CARTESIAN_POINT('',(-2.22499999999997,-111.747716455597,-22.994678616503));
#507=CARTESIAN_POINT('Origin',(-3.47499999999997,-115.497716455597,-22.994678616503));
#508=CARTESIAN_POINT('',(-3.47499999999997,-115.497716455597,-22.794678616503));
#509=CARTESIAN_POINT('',(-3.47499999999997,-115.497716455597,-22.994678616503));
#510=CARTESIAN_POINT('',(-3.47499999999997,-111.747716455597,-22.794678616503));
#511=CARTESIAN_POINT('Origin',(-2.22499999999997,-115.497716455597,-22.994678616503));
#512=CARTESIAN_POINT('',(-2.22499999999997,-116.747716455597,-22.794678616503));
#513=CARTESIAN_POINT('',(-2.22499999999997,-116.747716455597,-22.994678616503));
#514=CARTESIAN_POINT('Origin',(-2.22499999999997,-115.497716455597,-22.794678616503));
#515=CARTESIAN_POINT('Origin',(10.275,-116.747716455597,-22.994678616503));
#516=CARTESIAN_POINT('',(10.275,-116.747716455597,-22.794678616503));
#517=CARTESIAN_POINT('',(10.275,-116.747716455597,-22.994678616503));
#518=CARTESIAN_POINT('',(-3.47499999999997,-116.747716455597,-22.794678616503));
#519=CARTESIAN_POINT('Origin',(152.4,-59.8873153055047,-24.494678616503));
#520=CARTESIAN_POINT('Origin',(10.275,-115.497716455597,-22.994678616503));
#521=CARTESIAN_POINT('',(11.525,-115.497716455597,-22.794678616503));
#522=CARTESIAN_POINT('',(11.525,-115.497716455597,-22.994678616503));
#523=CARTESIAN_POINT('Origin',(10.275,-115.497716455597,-22.794678616503));
#524=CARTESIAN_POINT('Origin',(11.525,-112.997716455597,-22.994678616503));
#525=CARTESIAN_POINT('',(11.525,-112.997716455597,-22.794678616503));
#526=CARTESIAN_POINT('',(11.525,-112.997716455597,-22.994678616503));
#527=CARTESIAN_POINT('',(11.525,-116.747716455597,-22.794678616503));
#528=CARTESIAN_POINT('Origin',(10.275,-112.997716455597,-22.994678616503));
#529=CARTESIAN_POINT('',(10.275,-111.747716455597,-22.794678616503));
#530=CARTESIAN_POINT('',(10.275,-111.747716455597,-22.994678616503));
#531=CARTESIAN_POINT('Origin',(10.275,-112.997716455597,-22.794678616503));
#532=CARTESIAN_POINT('Origin',(-2.22499999999997,-111.747716455597,-22.994678616503));
#533=CARTESIAN_POINT('',(11.525,-111.747716455597,-22.794678616503));
#534=CARTESIAN_POINT('Origin',(152.4,-59.8873153055047,-22.794678616503));
#535=CARTESIAN_POINT('',(0.,-228.495432911194,-47.2145035900345));
#536=UNCERTAINTY_MEASURE_WITH_UNIT(LENGTH_MEASURE(0.01),#542,
'DISTANCE_ACCURACY_VALUE',
'Maximum model space distance between geometric entities at asserted c
onnectivities');
#537=UNCERTAINTY_MEASURE_WITH_UNIT(LENGTH_MEASURE(0.01),#542,
'DISTANCE_ACCURACY_VALUE',
'Maximum model space distance between geometric entities at asserted c
onnectivities');
#538=UNCERTAINTY_MEASURE_WITH_UNIT(LENGTH_MEASURE(0.01),#542,
'DISTANCE_ACCURACY_VALUE',
'Maximum model space distance between geometric entities at asserted c
onnectivities');
#539=(
GEOMETRIC_REPRESENTATION_CONTEXT(3)
GLOBAL_UNCERTAINTY_ASSIGNED_CONTEXT((#536))
GLOBAL_UNIT_ASSIGNED_CONTEXT((#542,#544,#545))
REPRESENTATION_CONTEXT('','3D')
);
#540=(
GEOMETRIC_REPRESENTATION_CONTEXT(3)
GLOBAL_UNCERTAINTY_ASSIGNED_CONTEXT((#537))
GLOBAL_UNIT_ASSIGNED_CONTEXT((#542,#544,#545))
REPRESENTATION_CONTEXT('','3D')
);
#541=(
GEOMETRIC_REPRESENTATION_CONTEXT(3)
GLOBAL_UNCERTAINTY_ASSIGNED_CONTEXT((#538))
GLOBAL_UNIT_ASSIGNED_CONTEXT((#542,#544,#545))
REPRESENTATION_CONTEXT('','3D')
);
#542=(
LENGTH_UNIT()
NAMED_UNIT(*)
SI_UNIT(.MILLI.,.METRE.)
);
#543=(
LENGTH_UNIT()
NAMED_UNIT(*)
SI_UNIT($,.METRE.)
);
#544=(
NAMED_UNIT(*)
PLANE_ANGLE_UNIT()
SI_UNIT($,.RADIAN.)
);
#545=(
NAMED_UNIT(*)
SI_UNIT($,.STERADIAN.)
SOLID_ANGLE_UNIT()
);
#546=SHAPE_DEFINITION_REPRESENTATION(#548,#551);
#547=SHAPE_DEFINITION_REPRESENTATION(#549,#552);
#548=PRODUCT_DEFINITION_SHAPE('',$,#554);
#549=PRODUCT_DEFINITION_SHAPE('',$,#555);
#550=PRODUCT_DEFINITION_SHAPE($,$,#14);
#551=SHAPE_REPRESENTATION('',(#308,#348),#539);
#552=SHAPE_REPRESENTATION('',(#309),#540);
#553=PRODUCT_DEFINITION_CONTEXT('part definition',#561,'design');
#554=PRODUCT_DEFINITION('blackpaw','blackpaw v6',#556,#553);
#555=PRODUCT_DEFINITION('Component1','Component1',#557,#553);
#556=PRODUCT_DEFINITION_FORMATION('',$,#563);
#557=PRODUCT_DEFINITION_FORMATION('',$,#564);
#558=PRODUCT_RELATED_PRODUCT_CATEGORY('blackpaw v6','blackpaw v6',(#563));
#559=PRODUCT_RELATED_PRODUCT_CATEGORY('Component1','Component1',(#564));
#560=APPLICATION_PROTOCOL_DEFINITION('international standard',
'automotive_design',2009,#561);
#561=APPLICATION_CONTEXT(
'Core Data for Automotive Mechanical Design Process');
#562=PRODUCT_CONTEXT('part definition',#561,'mechanical');
#563=PRODUCT('blackpaw','blackpaw v6',$,(#562));
#564=PRODUCT('Component1','Component1',$,(#562));
#565=PRESENTATION_STYLE_ASSIGNMENT((#567));
#566=PRESENTATION_STYLE_ASSIGNMENT((#568));
#567=SURFACE_STYLE_USAGE(.BOTH.,#569);
#568=SURFACE_STYLE_USAGE(.BOTH.,#570);
#569=SURFACE_SIDE_STYLE('',(#571));
#570=SURFACE_SIDE_STYLE('',(#572));
#571=SURFACE_STYLE_FILL_AREA(#573);
#572=SURFACE_STYLE_FILL_AREA(#574);
#573=FILL_AREA_STYLE('Steel - Satin',(#575));
#574=FILL_AREA_STYLE('Rubber - Soft',(#576));
#575=FILL_AREA_STYLE_COLOUR('Steel - Satin',#577);
#576=FILL_AREA_STYLE_COLOUR('Rubber - Soft',#578);
#577=COLOUR_RGB('Steel - Satin',0.627450980392157,0.627450980392157,0.627450980392157);
#578=COLOUR_RGB('Rubber - Soft',0.152941176470588,0.152941176470588,0.152941176470588);
ENDSEC;
END-ISO-10303-21;
