ISO-10303-21;
HEADER;
/* Generated by software containing ST-Developer
 * from STEP Tools, Inc. (www.steptools.com) 
 */

FILE_DESCRIPTION(
/* description */ (''),
/* implementation_level */ '2;1');

FILE_NAME(
/* name */ 'Crin_Feet.step',
/* time_stamp */ '2023-07-12T16:34:47+01:00',
/* author */ (''),
/* organization */ (''),
/* preprocessor_version */ 'ST-DEVELOPER v19.2',
/* originating_system */ 'Autodesk Translation Framework v11.17.0.187',

/* authorisation */ '');

FILE_SCHEMA (('AUTOMOTIVE_DESIGN { 1 0 10303 214 3 1 1 }'));
ENDSEC;

DATA;
#10=MECHANICAL_DESIGN_GEOMETRIC_PRESENTATION_REPRESENTATION('',(#13),#285);
#11=SHAPE_REPRESENTATION_RELATIONSHIP('SRR','None',#292,#12);
#12=ADVANCED_BREP_SHAPE_REPRESENTATION('',(#14),#284);
#13=STYLED_ITEM('',(#302),#14);
#14=MANIFOLD_SOLID_BREP('Body1',#161);
#15=CYLINDRICAL_SURFACE('',#183,3.);
#16=CYLINDRICAL_SURFACE('',#187,3.);
#17=CIRCLE('',#177,2.);
#18=CIRCLE('',#178,3.);
#19=CIRCLE('',#181,2.);
#20=CIRCLE('',#182,3.);
#21=CIRCLE('',#184,3.);
#22=CIRCLE('',#188,3.);
#23=CONICAL_SURFACE('',#176,2.5,0.785398163397449);
#24=CONICAL_SURFACE('',#180,2.5,0.785398163397448);
#25=FACE_OUTER_BOUND('',#35,.T.);
#26=FACE_OUTER_BOUND('',#36,.T.);
#27=FACE_OUTER_BOUND('',#37,.T.);
#28=FACE_OUTER_BOUND('',#38,.T.);
#29=FACE_OUTER_BOUND('',#39,.T.);
#30=FACE_OUTER_BOUND('',#40,.T.);
#31=FACE_OUTER_BOUND('',#41,.T.);
#32=FACE_OUTER_BOUND('',#42,.T.);
#33=FACE_OUTER_BOUND('',#43,.T.);
#34=FACE_OUTER_BOUND('',#44,.T.);
#35=EDGE_LOOP('',(#105,#106,#107,#108));
#36=EDGE_LOOP('',(#109,#110,#111,#112));
#37=EDGE_LOOP('',(#113,#114,#115,#116));
#38=EDGE_LOOP('',(#117,#118,#119,#120));
#39=EDGE_LOOP('',(#121,#122,#123,#124));
#40=EDGE_LOOP('',(#125,#126,#127,#128));
#41=EDGE_LOOP('',(#129,#130,#131,#132));
#42=EDGE_LOOP('',(#133,#134,#135,#136));
#43=EDGE_LOOP('',(#137,#138,#139,#140));
#44=EDGE_LOOP('',(#141,#142,#143,#144));
#45=LINE('',#243,#59);
#46=LINE('',#245,#60);
#47=LINE('',#247,#61);
#48=LINE('',#248,#62);
#49=LINE('',#252,#63);
#50=LINE('',#258,#64);
#51=LINE('',#259,#65);
#52=LINE('',#260,#66);
#53=LINE('',#266,#67);
#54=LINE('',#269,#68);
#55=LINE('',#272,#69);
#56=LINE('',#273,#70);
#57=LINE('',#277,#71);
#58=LINE('',#280,#72);
#59=VECTOR('',#195,10.);
#60=VECTOR('',#196,10.);
#61=VECTOR('',#197,10.);
#62=VECTOR('',#198,10.);
#63=VECTOR('',#201,10.);
#64=VECTOR('',#208,10.);
#65=VECTOR('',#209,10.);
#66=VECTOR('',#210,10.);
#67=VECTOR('',#219,10.);
#68=VECTOR('',#222,10.);
#69=VECTOR('',#225,10.);
#70=VECTOR('',#226,10.);
#71=VECTOR('',#231,10.);
#72=VECTOR('',#236,10.);
#73=VERTEX_POINT('',#241);
#74=VERTEX_POINT('',#242);
#75=VERTEX_POINT('',#244);
#76=VERTEX_POINT('',#246);
#77=VERTEX_POINT('',#250);
#78=VERTEX_POINT('',#251);
#79=VERTEX_POINT('',#256);
#80=VERTEX_POINT('',#257);
#81=VERTEX_POINT('',#265);
#82=VERTEX_POINT('',#267);
#83=VERTEX_POINT('',#271);
#84=VERTEX_POINT('',#276);
#85=EDGE_CURVE('',#73,#74,#45,.T.);
#86=EDGE_CURVE('',#74,#75,#46,.T.);
#87=EDGE_CURVE('',#75,#76,#47,.T.);
#88=EDGE_CURVE('',#76,#73,#48,.T.);
#89=EDGE_CURVE('',#77,#78,#49,.T.);
#90=EDGE_CURVE('',#78,#74,#17,.T.);
#91=EDGE_CURVE('',#73,#77,#18,.T.);
#92=EDGE_CURVE('',#79,#80,#50,.T.);
#93=EDGE_CURVE('',#80,#78,#51,.T.);
#94=EDGE_CURVE('',#77,#79,#52,.T.);
#95=EDGE_CURVE('',#75,#80,#19,.T.);
#96=EDGE_CURVE('',#79,#76,#20,.T.);
#97=EDGE_CURVE('',#73,#81,#53,.T.);
#98=EDGE_CURVE('',#82,#81,#21,.T.);
#99=EDGE_CURVE('',#77,#82,#54,.T.);
#100=EDGE_CURVE('',#76,#83,#55,.T.);
#101=EDGE_CURVE('',#81,#83,#56,.T.);
#102=EDGE_CURVE('',#79,#84,#57,.T.);
#103=EDGE_CURVE('',#83,#84,#22,.T.);
#104=EDGE_CURVE('',#82,#84,#58,.T.);
#105=ORIENTED_EDGE('',*,*,#85,.T.);
#106=ORIENTED_EDGE('',*,*,#86,.T.);
#107=ORIENTED_EDGE('',*,*,#87,.T.);
#108=ORIENTED_EDGE('',*,*,#88,.T.);
#109=ORIENTED_EDGE('',*,*,#89,.T.);
#110=ORIENTED_EDGE('',*,*,#90,.T.);
#111=ORIENTED_EDGE('',*,*,#85,.F.);
#112=ORIENTED_EDGE('',*,*,#91,.T.);
#113=ORIENTED_EDGE('',*,*,#92,.T.);
#114=ORIENTED_EDGE('',*,*,#93,.T.);
#115=ORIENTED_EDGE('',*,*,#89,.F.);
#116=ORIENTED_EDGE('',*,*,#94,.T.);
#117=ORIENTED_EDGE('',*,*,#87,.F.);
#118=ORIENTED_EDGE('',*,*,#95,.T.);
#119=ORIENTED_EDGE('',*,*,#92,.F.);
#120=ORIENTED_EDGE('',*,*,#96,.T.);
#121=ORIENTED_EDGE('',*,*,#91,.F.);
#122=ORIENTED_EDGE('',*,*,#97,.T.);
#123=ORIENTED_EDGE('',*,*,#98,.F.);
#124=ORIENTED_EDGE('',*,*,#99,.F.);
#125=ORIENTED_EDGE('',*,*,#88,.F.);
#126=ORIENTED_EDGE('',*,*,#100,.T.);
#127=ORIENTED_EDGE('',*,*,#101,.F.);
#128=ORIENTED_EDGE('',*,*,#97,.F.);
#129=ORIENTED_EDGE('',*,*,#86,.F.);
#130=ORIENTED_EDGE('',*,*,#90,.F.);
#131=ORIENTED_EDGE('',*,*,#93,.F.);
#132=ORIENTED_EDGE('',*,*,#95,.F.);
#133=ORIENTED_EDGE('',*,*,#96,.F.);
#134=ORIENTED_EDGE('',*,*,#102,.T.);
#135=ORIENTED_EDGE('',*,*,#103,.F.);
#136=ORIENTED_EDGE('',*,*,#100,.F.);
#137=ORIENTED_EDGE('',*,*,#94,.F.);
#138=ORIENTED_EDGE('',*,*,#99,.T.);
#139=ORIENTED_EDGE('',*,*,#104,.T.);
#140=ORIENTED_EDGE('',*,*,#102,.F.);
#141=ORIENTED_EDGE('',*,*,#104,.F.);
#142=ORIENTED_EDGE('',*,*,#98,.T.);
#143=ORIENTED_EDGE('',*,*,#101,.T.);
#144=ORIENTED_EDGE('',*,*,#103,.T.);
#145=PLANE('',#175);
#146=PLANE('',#179);
#147=PLANE('',#185);
#148=PLANE('',#186);
#149=PLANE('',#189);
#150=PLANE('',#190);
#151=ADVANCED_FACE('',(#25),#145,.T.);
#152=ADVANCED_FACE('',(#26),#23,.T.);
#153=ADVANCED_FACE('',(#27),#146,.T.);
#154=ADVANCED_FACE('',(#28),#24,.T.);
#155=ADVANCED_FACE('',(#29),#15,.T.);
#156=ADVANCED_FACE('',(#30),#147,.T.);
#157=ADVANCED_FACE('',(#31),#148,.T.);
#158=ADVANCED_FACE('',(#32),#16,.T.);
#159=ADVANCED_FACE('',(#33),#149,.T.);
#160=ADVANCED_FACE('',(#34),#150,.F.);
#161=CLOSED_SHELL('',(#151,#152,#153,#154,#155,#156,#157,#158,#159,#160));
#162=DERIVED_UNIT_ELEMENT(#164,1.);
#163=DERIVED_UNIT_ELEMENT(#287,-3.);
#164=(
MASS_UNIT()
NAMED_UNIT(*)
SI_UNIT(.KILO.,.GRAM.)
);
#165=DERIVED_UNIT((#162,#163));
#166=MEASURE_REPRESENTATION_ITEM('density measure',
POSITIVE_RATIO_MEASURE(7850.),#165);
#167=PROPERTY_DEFINITION_REPRESENTATION(#172,#169);
#168=PROPERTY_DEFINITION_REPRESENTATION(#173,#170);
#169=REPRESENTATION('material name',(#171),#284);
#170=REPRESENTATION('density',(#166),#284);
#171=DESCRIPTIVE_REPRESENTATION_ITEM('Steel','Steel');
#172=PROPERTY_DEFINITION('material property','material name',#294);
#173=PROPERTY_DEFINITION('material property','density of part',#294);
#174=AXIS2_PLACEMENT_3D('placement',#239,#191,#192);
#175=AXIS2_PLACEMENT_3D('',#240,#193,#194);
#176=AXIS2_PLACEMENT_3D('',#249,#199,#200);
#177=AXIS2_PLACEMENT_3D('',#253,#202,#203);
#178=AXIS2_PLACEMENT_3D('',#254,#204,#205);
#179=AXIS2_PLACEMENT_3D('',#255,#206,#207);
#180=AXIS2_PLACEMENT_3D('',#261,#211,#212);
#181=AXIS2_PLACEMENT_3D('',#262,#213,#214);
#182=AXIS2_PLACEMENT_3D('',#263,#215,#216);
#183=AXIS2_PLACEMENT_3D('',#264,#217,#218);
#184=AXIS2_PLACEMENT_3D('',#268,#220,#221);
#185=AXIS2_PLACEMENT_3D('',#270,#223,#224);
#186=AXIS2_PLACEMENT_3D('',#274,#227,#228);
#187=AXIS2_PLACEMENT_3D('',#275,#229,#230);
#188=AXIS2_PLACEMENT_3D('',#278,#232,#233);
#189=AXIS2_PLACEMENT_3D('',#279,#234,#235);
#190=AXIS2_PLACEMENT_3D('',#281,#237,#238);
#191=DIRECTION('axis',(0.,0.,1.));
#192=DIRECTION('refdir',(1.,0.,0.));
#193=DIRECTION('center_axis',(0.,-0.707106781186548,0.707106781186547));
#194=DIRECTION('ref_axis',(1.,0.,0.));
#195=DIRECTION('',(0.,0.707106781186547,0.707106781186548));
#196=DIRECTION('',(-1.,0.,0.));
#197=DIRECTION('',(2.86902654303702E-16,-0.707106781186548,-0.707106781186547));
#198=DIRECTION('',(1.,0.,0.));
#199=DIRECTION('center_axis',(0.,0.,-1.));
#200=DIRECTION('ref_axis',(0.,-1.,0.));
#201=DIRECTION('',(0.,-0.707106781186548,0.707106781186547));
#202=DIRECTION('center_axis',(0.,0.,-1.));
#203=DIRECTION('ref_axis',(0.,-1.,0.));
#204=DIRECTION('center_axis',(0.,0.,1.));
#205=DIRECTION('ref_axis',(0.,-1.,0.));
#206=DIRECTION('center_axis',(0.,0.707106781186548,0.707106781186547));
#207=DIRECTION('ref_axis',(1.,0.,0.));
#208=DIRECTION('',(0.,-0.707106781186548,0.707106781186547));
#209=DIRECTION('',(1.,0.,0.));
#210=DIRECTION('',(-1.,0.,0.));
#211=DIRECTION('center_axis',(0.,0.,-1.));
#212=DIRECTION('ref_axis',(3.70074341541719E-16,1.,0.));
#213=DIRECTION('center_axis',(0.,0.,-1.));
#214=DIRECTION('ref_axis',(3.70074341541719E-16,1.,0.));
#215=DIRECTION('center_axis',(0.,0.,1.));
#216=DIRECTION('ref_axis',(3.70074341541719E-16,1.,0.));
#217=DIRECTION('center_axis',(0.,0.,-1.));
#218=DIRECTION('ref_axis',(0.,-1.,0.));
#219=DIRECTION('',(0.,0.,-1.));
#220=DIRECTION('center_axis',(0.,0.,-1.));
#221=DIRECTION('ref_axis',(0.,-1.,0.));
#222=DIRECTION('',(0.,0.,-1.));
#223=DIRECTION('center_axis',(0.,-1.,0.));
#224=DIRECTION('ref_axis',(1.,0.,0.));
#225=DIRECTION('',(0.,0.,-1.));
#226=DIRECTION('',(-1.,-7.40148683083438E-17,0.));
#227=DIRECTION('center_axis',(0.,0.,1.));
#228=DIRECTION('ref_axis',(1.,0.,0.));
#229=DIRECTION('center_axis',(0.,0.,-1.));
#230=DIRECTION('ref_axis',(3.70074341541719E-16,1.,0.));
#231=DIRECTION('',(0.,0.,-1.));
#232=DIRECTION('center_axis',(0.,0.,-1.));
#233=DIRECTION('ref_axis',(3.70074341541719E-16,1.,0.));
#234=DIRECTION('center_axis',(0.,1.,0.));
#235=DIRECTION('ref_axis',(-1.,0.,0.));
#236=DIRECTION('',(-1.,0.,0.));
#237=DIRECTION('center_axis',(0.,0.,1.));
#238=DIRECTION('ref_axis',(1.,0.,0.));
#239=CARTESIAN_POINT('',(0.,0.,0.));
#240=CARTESIAN_POINT('Origin',(7.5,0.499999999999999,2.5));
#241=CARTESIAN_POINT('',(30.,0.,2.));
#242=CARTESIAN_POINT('',(30.,0.999999999999999,3.));
#243=CARTESIAN_POINT('',(30.,0.,2.));
#244=CARTESIAN_POINT('',(-1.11022302462516E-15,0.999999999999999,3.));
#245=CARTESIAN_POINT('',(7.5,0.999999999999999,3.));
#246=CARTESIAN_POINT('',(-7.04481399828022E-16,-2.22044604925031E-15,2.));
#247=CARTESIAN_POINT('',(-1.11022302462516E-15,0.999999999999999,3.));
#248=CARTESIAN_POINT('',(7.5,0.,2.));
#249=CARTESIAN_POINT('Origin',(30.,3.,2.5));
#250=CARTESIAN_POINT('',(30.,6.,2.));
#251=CARTESIAN_POINT('',(30.,5.,3.));
#252=CARTESIAN_POINT('',(30.,6.,2.));
#253=CARTESIAN_POINT('Origin',(30.,3.,3.));
#254=CARTESIAN_POINT('Origin',(30.,3.,2.));
#255=CARTESIAN_POINT('Origin',(22.5,5.5,2.5));
#256=CARTESIAN_POINT('',(0.,6.,2.));
#257=CARTESIAN_POINT('',(0.,5.,3.));
#258=CARTESIAN_POINT('',(0.,6.,2.));
#259=CARTESIAN_POINT('',(22.5,5.,3.));
#260=CARTESIAN_POINT('',(22.5,6.,2.));
#261=CARTESIAN_POINT('Origin',(-1.11022302462516E-15,3.,2.5));
#262=CARTESIAN_POINT('Origin',(-1.11022302462516E-15,3.,3.));
#263=CARTESIAN_POINT('Origin',(-1.11022302462516E-15,3.,2.));
#264=CARTESIAN_POINT('Origin',(30.,3.,3.));
#265=CARTESIAN_POINT('',(30.,0.,0.));
#266=CARTESIAN_POINT('',(30.,0.,3.));
#267=CARTESIAN_POINT('',(30.,6.,0.));
#268=CARTESIAN_POINT('Origin',(30.,3.,0.));
#269=CARTESIAN_POINT('',(30.,6.,3.));
#270=CARTESIAN_POINT('Origin',(0.,0.,0.));
#271=CARTESIAN_POINT('',(-5.55111512312578E-16,-2.22044604925031E-15,0.));
#272=CARTESIAN_POINT('',(-7.04481399828022E-16,-2.22044604925031E-15,3.));
#273=CARTESIAN_POINT('',(-7.04481399828022E-16,-2.22044604925031E-15,0.));
#274=CARTESIAN_POINT('Origin',(15.,3.,3.));
#275=CARTESIAN_POINT('Origin',(-1.11022302462516E-15,3.,3.));
#276=CARTESIAN_POINT('',(0.,6.,0.));
#277=CARTESIAN_POINT('',(0.,6.,3.));
#278=CARTESIAN_POINT('Origin',(-1.11022302462516E-15,3.,0.));
#279=CARTESIAN_POINT('Origin',(30.,6.,0.));
#280=CARTESIAN_POINT('',(30.,6.,0.));
#281=CARTESIAN_POINT('Origin',(15.,3.,0.));
#282=UNCERTAINTY_MEASURE_WITH_UNIT(LENGTH_MEASURE(0.01),#286,
'DISTANCE_ACCURACY_VALUE',
'Maximum model space distance between geometric entities at asserted c
onnectivities');
#283=UNCERTAINTY_MEASURE_WITH_UNIT(LENGTH_MEASURE(0.01),#286,
'DISTANCE_ACCURACY_VALUE',
'Maximum model space distance between geometric entities at asserted c
onnectivities');
#284=(
GEOMETRIC_REPRESENTATION_CONTEXT(3)
GLOBAL_UNCERTAINTY_ASSIGNED_CONTEXT((#282))
GLOBAL_UNIT_ASSIGNED_CONTEXT((#286,#288,#289))
REPRESENTATION_CONTEXT('','3D')
);
#285=(
GEOMETRIC_REPRESENTATION_CONTEXT(3)
GLOBAL_UNCERTAINTY_ASSIGNED_CONTEXT((#283))
GLOBAL_UNIT_ASSIGNED_CONTEXT((#286,#288,#289))
REPRESENTATION_CONTEXT('','3D')
);
#286=(
LENGTH_UNIT()
NAMED_UNIT(*)
SI_UNIT(.MILLI.,.METRE.)
);
#287=(
LENGTH_UNIT()
NAMED_UNIT(*)
SI_UNIT($,.METRE.)
);
#288=(
NAMED_UNIT(*)
PLANE_ANGLE_UNIT()
SI_UNIT($,.RADIAN.)
);
#289=(
NAMED_UNIT(*)
SI_UNIT($,.STERADIAN.)
SOLID_ANGLE_UNIT()
);
#290=SHAPE_DEFINITION_REPRESENTATION(#291,#292);
#291=PRODUCT_DEFINITION_SHAPE('',$,#294);
#292=SHAPE_REPRESENTATION('',(#174),#284);
#293=PRODUCT_DEFINITION_CONTEXT('part definition',#298,'design');
#294=PRODUCT_DEFINITION('Crin feet','Crin feet v2',#295,#293);
#295=PRODUCT_DEFINITION_FORMATION('',$,#300);
#296=PRODUCT_RELATED_PRODUCT_CATEGORY('Crin feet v2','Crin feet v2',(#300));
#297=APPLICATION_PROTOCOL_DEFINITION('international standard',
'automotive_design',2009,#298);
#298=APPLICATION_CONTEXT(
'Core Data for Automotive Mechanical Design Process');
#299=PRODUCT_CONTEXT('part definition',#298,'mechanical');
#300=PRODUCT('Crin feet','Crin feet v2',$,(#299));
#301=PRESENTATION_STYLE_ASSIGNMENT((#303));
#302=PRESENTATION_STYLE_ASSIGNMENT((#304));
#303=SURFACE_STYLE_USAGE(.BOTH.,#305);
#304=SURFACE_STYLE_USAGE(.BOTH.,#306);
#305=SURFACE_SIDE_STYLE('',(#307));
#306=SURFACE_SIDE_STYLE('',(#308));
#307=SURFACE_STYLE_FILL_AREA(#309);
#308=SURFACE_STYLE_FILL_AREA(#310);
#309=FILL_AREA_STYLE('Plate',(#311));
#310=FILL_AREA_STYLE('Rubber - Soft',(#312));
#311=FILL_AREA_STYLE_COLOUR('Plate',#313);
#312=FILL_AREA_STYLE_COLOUR('Rubber - Soft',#314);
#313=COLOUR_RGB('Plate',0.6,0.6,0.6);
#314=COLOUR_RGB('Rubber - Soft',0.152941176470588,0.152941176470588,0.152941176470588);
ENDSEC;
END-ISO-10303-21;
