ISO-10303-21;
HEADER;
/* Generated by software containing ST-Developer
 * from STEP Tools, Inc. (www.steptools.com) 
 */

FILE_DESCRIPTION(
/* description */ (''),
/* implementation_level */ '2;1');

FILE_NAME(
/* name */ 'Ellipse_Feet.step',
/* time_stamp */ '2023-07-12T16:41:11+01:00',
/* author */ (''),
/* organization */ (''),
/* preprocessor_version */ 'ST-DEVELOPER v19.2',
/* originating_system */ 'Autodesk Translation Framework v11.17.0.187',

/* authorisation */ '');

FILE_SCHEMA (('AUTOMOTIVE_DESIGN { 1 0 10303 214 3 1 1 }'));
ENDSEC;

DATA;
#10=MECHANICAL_DESIGN_GEOMETRIC_PRESENTATION_REPRESENTATION('',(#13),#134);
#11=SHAPE_REPRESENTATION_RELATIONSHIP('SRR','None',#141,#12);
#12=ADVANCED_BREP_SHAPE_REPRESENTATION('',(#14),#133);
#13=STYLED_ITEM('',(#151),#14);
#14=MANIFOLD_SOLID_BREP('Body1',#42);
#15=LINE('',#129,#16);
#16=VECTOR('',#62,10.);
#17=B_SPLINE_SURFACE_WITH_KNOTS('',3,1,((#83,#84),(#85,#86),(#87,#88),(#89,
#90),(#91,#92),(#93,#94),(#95,#96),(#97,#98),(#99,#100),(#101,#102),(#103,
#104),(#105,#106),(#107,#108),(#109,#110),(#111,#112)),.UNSPECIFIED.,.T.,
 .F.,.F.,(4,1,1,1,1,1,1,1,1,1,1,1,4),(2,2),(0.,0.392699081698724,0.785398163397448,
1.5707963267949,2.35619449019234,2.74889357189107,3.14159265358979,3.53429173528852,
3.92699081698724,4.71238898038469,5.49778714378214,5.89048622548086,6.28318530717959),
(0.,0.24),.UNSPECIFIED.);
#18=FACE_OUTER_BOUND('',#21,.T.);
#19=FACE_OUTER_BOUND('',#22,.T.);
#20=FACE_OUTER_BOUND('',#23,.T.);
#21=EDGE_LOOP('',(#31));
#22=EDGE_LOOP('',(#32,#33,#34,#35));
#23=EDGE_LOOP('',(#36));
#24=B_SPLINE_CURVE_WITH_KNOTS('',3,(#68,#69,#70,#71,#72,#73,#74,#75,#76,
#77,#78,#79,#80,#81,#82),.UNSPECIFIED.,.T.,.F.,(4,1,1,1,1,1,1,1,1,1,1,1,
4),(0.,0.392699081698724,0.785398163397449,1.5707963267949,2.35619449019235,
2.74889357189107,3.1415926535898,3.53429173528852,3.92699081698724,4.71238898038469,
5.49778714378214,5.89048622548087,6.28318530717959),.UNSPECIFIED.);
#25=B_SPLINE_CURVE_WITH_KNOTS('',3,(#114,#115,#116,#117,#118,#119,#120,
#121,#122,#123,#124,#125,#126,#127,#128),.UNSPECIFIED.,.T.,.F.,(4,1,1,1,
1,1,1,1,1,1,1,1,4),(0.,0.392699081698724,0.785398163397448,1.5707963267949,
2.35619449019234,2.74889357189107,3.14159265358979,3.53429173528852,3.92699081698724,
4.71238898038469,5.49778714378214,5.89048622548086,6.28318530717959),
 .UNSPECIFIED.);
#26=VERTEX_POINT('',#67);
#27=VERTEX_POINT('',#113);
#28=EDGE_CURVE('',#26,#26,#24,.T.);
#29=EDGE_CURVE('',#27,#27,#25,.T.);
#30=EDGE_CURVE('',#27,#26,#15,.T.);
#31=ORIENTED_EDGE('',*,*,#28,.F.);
#32=ORIENTED_EDGE('',*,*,#29,.F.);
#33=ORIENTED_EDGE('',*,*,#30,.T.);
#34=ORIENTED_EDGE('',*,*,#28,.T.);
#35=ORIENTED_EDGE('',*,*,#30,.F.);
#36=ORIENTED_EDGE('',*,*,#29,.T.);
#37=PLANE('',#56);
#38=PLANE('',#57);
#39=ADVANCED_FACE('',(#18),#37,.F.);
#40=ADVANCED_FACE('',(#19),#17,.F.);
#41=ADVANCED_FACE('',(#20),#38,.T.);
#42=CLOSED_SHELL('',(#39,#40,#41));
#43=DERIVED_UNIT_ELEMENT(#45,1.);
#44=DERIVED_UNIT_ELEMENT(#136,-3.);
#45=(
MASS_UNIT()
NAMED_UNIT(*)
SI_UNIT(.KILO.,.GRAM.)
);
#46=DERIVED_UNIT((#43,#44));
#47=MEASURE_REPRESENTATION_ITEM('density measure',
POSITIVE_RATIO_MEASURE(7850.),#46);
#48=PROPERTY_DEFINITION_REPRESENTATION(#53,#50);
#49=PROPERTY_DEFINITION_REPRESENTATION(#54,#51);
#50=REPRESENTATION('material name',(#52),#133);
#51=REPRESENTATION('density',(#47),#133);
#52=DESCRIPTIVE_REPRESENTATION_ITEM('Steel','Steel');
#53=PROPERTY_DEFINITION('material property','material name',#143);
#54=PROPERTY_DEFINITION('material property','density of part',#143);
#55=AXIS2_PLACEMENT_3D('placement',#65,#58,#59);
#56=AXIS2_PLACEMENT_3D('',#66,#60,#61);
#57=AXIS2_PLACEMENT_3D('',#130,#63,#64);
#58=DIRECTION('axis',(0.,0.,1.));
#59=DIRECTION('refdir',(1.,0.,0.));
#60=DIRECTION('center_axis',(0.,0.,1.));
#61=DIRECTION('ref_axis',(1.,0.,0.));
#62=DIRECTION('',(0.,0.,-1.));
#63=DIRECTION('center_axis',(0.,0.,1.));
#64=DIRECTION('ref_axis',(1.,0.,0.));
#65=CARTESIAN_POINT('',(0.,0.,0.));
#66=CARTESIAN_POINT('Origin',(0.,0.,0.));
#67=CARTESIAN_POINT('',(-8.15,0.,0.));
#68=CARTESIAN_POINT('Ctrl Pts',(-8.15,-1.17961196366423E-15,0.));
#69=CARTESIAN_POINT('Ctrl Pts',(-8.15,-0.515389521968221,0.));
#70=CARTESIAN_POINT('Ctrl Pts',(-7.74265625589973,-1.54616856590467,0.));
#71=CARTESIAN_POINT('Ctrl Pts',(-5.34670694434296,-3.35656981638733,0.));
#72=CARTESIAN_POINT('Ctrl Pts',(1.44740990026815E-14,-4.47062012240845,
0.));
#73=CARTESIAN_POINT('Ctrl Pts',(5.34670694434298,-3.35656981638732,0.));
#74=CARTESIAN_POINT('Ctrl Pts',(7.74265625589973,-1.54616856590467,0.));
#75=CARTESIAN_POINT('Ctrl Pts',(8.35367187205014,1.36927111088394E-14,0.));
#76=CARTESIAN_POINT('Ctrl Pts',(7.74265625589973,1.54616856590467,0.));
#77=CARTESIAN_POINT('Ctrl Pts',(5.34670694434295,3.35656981638734,0.));
#78=CARTESIAN_POINT('Ctrl Pts',(-4.26091453786803E-14,4.47062012240844,
0.));
#79=CARTESIAN_POINT('Ctrl Pts',(-5.34670694434296,3.35656981638734,0.));
#80=CARTESIAN_POINT('Ctrl Pts',(-7.74265625589975,1.54616856590465,0.));
#81=CARTESIAN_POINT('Ctrl Pts',(-8.15,0.515389521968223,0.));
#82=CARTESIAN_POINT('Ctrl Pts',(-8.15,9.29811783123569E-15,0.));
#83=CARTESIAN_POINT('Ctrl Pts',(-8.15000000000001,-1.6306400674182E-15,
2.));
#84=CARTESIAN_POINT('Ctrl Pts',(-8.15000000000001,-1.6306400674182E-15,
-0.400000000000001));
#85=CARTESIAN_POINT('Ctrl Pts',(-8.15,-0.515389521968225,2.));
#86=CARTESIAN_POINT('Ctrl Pts',(-8.15,-0.515389521968225,-0.400000000000001));
#87=CARTESIAN_POINT('Ctrl Pts',(-7.74265625589973,-1.54616856590467,2.));
#88=CARTESIAN_POINT('Ctrl Pts',(-7.74265625589973,-1.54616856590467,-0.400000000000001));
#89=CARTESIAN_POINT('Ctrl Pts',(-5.34670694434296,-3.35656981638733,2.));
#90=CARTESIAN_POINT('Ctrl Pts',(-5.34670694434296,-3.35656981638733,-0.400000000000001));
#91=CARTESIAN_POINT('Ctrl Pts',(-5.09575021068187E-15,-4.47062012240845,
2.));
#92=CARTESIAN_POINT('Ctrl Pts',(-5.09575021068187E-15,-4.47062012240845,
-0.400000000000001));
#93=CARTESIAN_POINT('Ctrl Pts',(5.34670694434298,-3.35656981638732,2.));
#94=CARTESIAN_POINT('Ctrl Pts',(5.34670694434298,-3.35656981638732,-0.400000000000001));
#95=CARTESIAN_POINT('Ctrl Pts',(7.74265625589972,-1.54616856590468,2.));
#96=CARTESIAN_POINT('Ctrl Pts',(7.74265625589972,-1.54616856590468,-0.400000000000001));
#97=CARTESIAN_POINT('Ctrl Pts',(8.35367187205014,4.72668207369541E-15,2.));
#98=CARTESIAN_POINT('Ctrl Pts',(8.35367187205014,4.72668207369541E-15,-0.400000000000001));
#99=CARTESIAN_POINT('Ctrl Pts',(7.74265625589974,1.54616856590466,2.));
#100=CARTESIAN_POINT('Ctrl Pts',(7.74265625589974,1.54616856590466,-0.400000000000001));
#101=CARTESIAN_POINT('Ctrl Pts',(5.34670694434295,3.35656981638734,2.));
#102=CARTESIAN_POINT('Ctrl Pts',(5.34670694434295,3.35656981638734,-0.400000000000001));
#103=CARTESIAN_POINT('Ctrl Pts',(-2.84603070277445E-14,4.47062012240844,
2.));
#104=CARTESIAN_POINT('Ctrl Pts',(-2.84603070277445E-14,4.47062012240844,
-0.400000000000001));
#105=CARTESIAN_POINT('Ctrl Pts',(-5.34670694434293,3.35656981638734,2.));
#106=CARTESIAN_POINT('Ctrl Pts',(-5.34670694434293,3.35656981638734,-0.400000000000001));
#107=CARTESIAN_POINT('Ctrl Pts',(-7.74265625589974,1.54616856590467,2.));
#108=CARTESIAN_POINT('Ctrl Pts',(-7.74265625589974,1.54616856590467,-0.400000000000001));
#109=CARTESIAN_POINT('Ctrl Pts',(-8.15000000000001,0.515389521968219,2.));
#110=CARTESIAN_POINT('Ctrl Pts',(-8.15000000000001,0.515389521968219,-0.400000000000001));
#111=CARTESIAN_POINT('Ctrl Pts',(-8.15,-1.32532873564628E-14,2.));
#112=CARTESIAN_POINT('Ctrl Pts',(-8.15,-1.32532873564628E-14,-0.400000000000001));
#113=CARTESIAN_POINT('',(-8.15,0.,2.));
#114=CARTESIAN_POINT('Ctrl Pts',(-8.15000000000001,-1.6306400674182E-15,
2.));
#115=CARTESIAN_POINT('Ctrl Pts',(-8.15,-0.515389521968225,2.));
#116=CARTESIAN_POINT('Ctrl Pts',(-7.74265625589973,-1.54616856590467,2.));
#117=CARTESIAN_POINT('Ctrl Pts',(-5.34670694434296,-3.35656981638733,2.));
#118=CARTESIAN_POINT('Ctrl Pts',(-5.09575021068187E-15,-4.47062012240845,
2.));
#119=CARTESIAN_POINT('Ctrl Pts',(5.34670694434298,-3.35656981638732,2.));
#120=CARTESIAN_POINT('Ctrl Pts',(7.74265625589972,-1.54616856590468,2.));
#121=CARTESIAN_POINT('Ctrl Pts',(8.35367187205014,4.72668207369541E-15,
2.));
#122=CARTESIAN_POINT('Ctrl Pts',(7.74265625589974,1.54616856590466,2.));
#123=CARTESIAN_POINT('Ctrl Pts',(5.34670694434295,3.35656981638734,2.));
#124=CARTESIAN_POINT('Ctrl Pts',(-2.84603070277445E-14,4.47062012240844,
2.));
#125=CARTESIAN_POINT('Ctrl Pts',(-5.34670694434293,3.35656981638734,2.));
#126=CARTESIAN_POINT('Ctrl Pts',(-7.74265625589974,1.54616856590467,2.));
#127=CARTESIAN_POINT('Ctrl Pts',(-8.15000000000001,0.515389521968219,2.));
#128=CARTESIAN_POINT('Ctrl Pts',(-8.15,-1.32532873564628E-14,2.));
#129=CARTESIAN_POINT('',(-8.15,-2.76225019247382E-15,2.));
#130=CARTESIAN_POINT('Origin',(0.,0.,2.));
#131=UNCERTAINTY_MEASURE_WITH_UNIT(LENGTH_MEASURE(0.01),#135,
'DISTANCE_ACCURACY_VALUE',
'Maximum model space distance between geometric entities at asserted c
onnectivities');
#132=UNCERTAINTY_MEASURE_WITH_UNIT(LENGTH_MEASURE(0.01),#135,
'DISTANCE_ACCURACY_VALUE',
'Maximum model space distance between geometric entities at asserted c
onnectivities');
#133=(
GEOMETRIC_REPRESENTATION_CONTEXT(3)
GLOBAL_UNCERTAINTY_ASSIGNED_CONTEXT((#131))
GLOBAL_UNIT_ASSIGNED_CONTEXT((#135,#137,#138))
REPRESENTATION_CONTEXT('','3D')
);
#134=(
GEOMETRIC_REPRESENTATION_CONTEXT(3)
GLOBAL_UNCERTAINTY_ASSIGNED_CONTEXT((#132))
GLOBAL_UNIT_ASSIGNED_CONTEXT((#135,#137,#138))
REPRESENTATION_CONTEXT('','3D')
);
#135=(
LENGTH_UNIT()
NAMED_UNIT(*)
SI_UNIT(.MILLI.,.METRE.)
);
#136=(
LENGTH_UNIT()
NAMED_UNIT(*)
SI_UNIT($,.METRE.)
);
#137=(
NAMED_UNIT(*)
PLANE_ANGLE_UNIT()
SI_UNIT($,.RADIAN.)
);
#138=(
NAMED_UNIT(*)
SI_UNIT($,.STERADIAN.)
SOLID_ANGLE_UNIT()
);
#139=SHAPE_DEFINITION_REPRESENTATION(#140,#141);
#140=PRODUCT_DEFINITION_SHAPE('',$,#143);
#141=SHAPE_REPRESENTATION('',(#55),#133);
#142=PRODUCT_DEFINITION_CONTEXT('part definition',#147,'design');
#143=PRODUCT_DEFINITION('Ellipse_DieCutBumpon_2022_09_14',
'Ellipse_DieCutBumpon_2022_09_14 v2',#144,#142);
#144=PRODUCT_DEFINITION_FORMATION('',$,#149);
#145=PRODUCT_RELATED_PRODUCT_CATEGORY(
'Ellipse_DieCutBumpon_2022_09_14 v2',
'Ellipse_DieCutBumpon_2022_09_14 v2',(#149));
#146=APPLICATION_PROTOCOL_DEFINITION('international standard',
'automotive_design',2009,#147);
#147=APPLICATION_CONTEXT(
'Core Data for Automotive Mechanical Design Process');
#148=PRODUCT_CONTEXT('part definition',#147,'mechanical');
#149=PRODUCT('Ellipse_DieCutBumpon_2022_09_14',
'Ellipse_DieCutBumpon_2022_09_14 v2',$,(#148));
#150=PRESENTATION_STYLE_ASSIGNMENT((#152));
#151=PRESENTATION_STYLE_ASSIGNMENT((#153));
#152=SURFACE_STYLE_USAGE(.BOTH.,#154);
#153=SURFACE_STYLE_USAGE(.BOTH.,#155);
#154=SURFACE_SIDE_STYLE('',(#156));
#155=SURFACE_SIDE_STYLE('',(#157));
#156=SURFACE_STYLE_FILL_AREA(#158);
#157=SURFACE_STYLE_FILL_AREA(#159);
#158=FILL_AREA_STYLE('Steel - Satin',(#160));
#159=FILL_AREA_STYLE('Rubber - Soft',(#161));
#160=FILL_AREA_STYLE_COLOUR('Steel - Satin',#162);
#161=FILL_AREA_STYLE_COLOUR('Rubber - Soft',#163);
#162=COLOUR_RGB('Steel - Satin',0.627450980392157,0.627450980392157,0.627450980392157);
#163=COLOUR_RGB('Rubber - Soft',0.152941176470588,0.152941176470588,0.152941176470588);
ENDSEC;
END-ISO-10303-21;
