ISO-10303-21;
HEADER;
/* Generated by software containing ST-Developer
 * from STEP Tools, Inc. (www.steptools.com) 
 */

FILE_DESCRIPTION(
/* description */ (''),
/* implementation_level */ '2;1');

FILE_NAME(
/* name */ 'ai03_Feet.step',
/* time_stamp */ '2023-07-12T16:21:36+01:00',
/* author */ (''),
/* organization */ (''),
/* preprocessor_version */ 'ST-DEVELOPER v19.2',
/* originating_system */ 'Autodesk Translation Framework v11.17.0.187',

/* authorisation */ '');

FILE_SCHEMA (('AUTOMOTIVE_DESIGN { 1 0 10303 214 3 1 1 }'));
ENDSEC;

DATA;
#10=MECHANICAL_DESIGN_GEOMETRIC_PRESENTATION_REPRESENTATION('',(#13),#112);
#11=SHAPE_REPRESENTATION_RELATIONSHIP('SRR','None',#119,#12);
#12=ADVANCED_BREP_SHAPE_REPRESENTATION('',(#14),#111);
#13=STYLED_ITEM('',(#129),#14);
#14=MANIFOLD_SOLID_BREP('Body1',#55);
#15=PLANE('',#75);
#16=PLANE('',#76);
#17=LINE('',#105,#18);
#18=VECTOR('',#89,4.);
#19=CYLINDRICAL_SURFACE('',#73,4.);
#20=FACE_OUTER_BOUND('',#24,.T.);
#21=FACE_OUTER_BOUND('',#25,.T.);
#22=FACE_OUTER_BOUND('',#26,.T.);
#23=FACE_OUTER_BOUND('',#27,.T.);
#24=EDGE_LOOP('',(#40,#41,#42,#43));
#25=EDGE_LOOP('',(#44,#45,#46,#47));
#26=EDGE_LOOP('',(#48));
#27=EDGE_LOOP('',(#49));
#28=CIRCLE('',#70,3.175);
#29=CIRCLE('',#71,0.825);
#30=CIRCLE('',#72,4.);
#31=CIRCLE('',#74,4.);
#32=VERTEX_POINT('',#98);
#33=VERTEX_POINT('',#100);
#34=VERTEX_POINT('',#104);
#35=EDGE_CURVE('',#32,#32,#28,.T.);
#36=EDGE_CURVE('',#32,#33,#29,.T.);
#37=EDGE_CURVE('',#33,#33,#30,.T.);
#38=EDGE_CURVE('',#33,#34,#17,.T.);
#39=EDGE_CURVE('',#34,#34,#31,.T.);
#40=ORIENTED_EDGE('',*,*,#35,.T.);
#41=ORIENTED_EDGE('',*,*,#36,.T.);
#42=ORIENTED_EDGE('',*,*,#37,.T.);
#43=ORIENTED_EDGE('',*,*,#36,.F.);
#44=ORIENTED_EDGE('',*,*,#37,.F.);
#45=ORIENTED_EDGE('',*,*,#38,.T.);
#46=ORIENTED_EDGE('',*,*,#39,.T.);
#47=ORIENTED_EDGE('',*,*,#38,.F.);
#48=ORIENTED_EDGE('',*,*,#35,.F.);
#49=ORIENTED_EDGE('',*,*,#39,.F.);
#50=TOROIDAL_SURFACE('',#69,3.175,0.825);
#51=ADVANCED_FACE('',(#20),#50,.T.);
#52=ADVANCED_FACE('',(#21),#19,.T.);
#53=ADVANCED_FACE('',(#22),#15,.T.);
#54=ADVANCED_FACE('',(#23),#16,.F.);
#55=CLOSED_SHELL('',(#51,#52,#53,#54));
#56=DERIVED_UNIT_ELEMENT(#58,1.);
#57=DERIVED_UNIT_ELEMENT(#114,-3.);
#58=(
MASS_UNIT()
NAMED_UNIT(*)
SI_UNIT(.KILO.,.GRAM.)
);
#59=DERIVED_UNIT((#56,#57));
#60=MEASURE_REPRESENTATION_ITEM('density measure',
POSITIVE_RATIO_MEASURE(2700.),#59);
#61=PROPERTY_DEFINITION_REPRESENTATION(#66,#63);
#62=PROPERTY_DEFINITION_REPRESENTATION(#67,#64);
#63=REPRESENTATION('material name',(#65),#111);
#64=REPRESENTATION('density',(#60),#111);
#65=DESCRIPTIVE_REPRESENTATION_ITEM('Aluminum 6061','Aluminum 6061');
#66=PROPERTY_DEFINITION('material property','material name',#121);
#67=PROPERTY_DEFINITION('material property','density of part',#121);
#68=AXIS2_PLACEMENT_3D('placement',#96,#77,#78);
#69=AXIS2_PLACEMENT_3D('',#97,#79,#80);
#70=AXIS2_PLACEMENT_3D('',#99,#81,#82);
#71=AXIS2_PLACEMENT_3D('',#101,#83,#84);
#72=AXIS2_PLACEMENT_3D('',#102,#85,#86);
#73=AXIS2_PLACEMENT_3D('',#103,#87,#88);
#74=AXIS2_PLACEMENT_3D('',#106,#90,#91);
#75=AXIS2_PLACEMENT_3D('',#107,#92,#93);
#76=AXIS2_PLACEMENT_3D('',#108,#94,#95);
#77=DIRECTION('axis',(0.,0.,1.));
#78=DIRECTION('refdir',(1.,0.,0.));
#79=DIRECTION('center_axis',(0.,-2.22044604925031E-16,1.));
#80=DIRECTION('ref_axis',(1.,0.,0.));
#81=DIRECTION('center_axis',(0.,2.22044604925031E-16,-1.));
#82=DIRECTION('ref_axis',(1.,7.70371977754894E-33,1.710569414459E-48));
#83=DIRECTION('center_axis',(1.22464679914735E-16,-1.,-2.22044604925031E-16));
#84=DIRECTION('ref_axis',(-1.,-1.22464679914735E-16,0.));
#85=DIRECTION('center_axis',(0.,-2.22044604925031E-16,1.));
#86=DIRECTION('ref_axis',(1.,7.70371977754894E-33,0.));
#87=DIRECTION('center_axis',(0.,-2.22044604925031E-16,1.));
#88=DIRECTION('ref_axis',(1.,0.,0.));
#89=DIRECTION('',(0.,2.22044604925031E-16,-1.));
#90=DIRECTION('center_axis',(0.,-2.22044604925031E-16,1.));
#91=DIRECTION('ref_axis',(1.,0.,0.));
#92=DIRECTION('center_axis',(0.,-2.22044604925031E-16,1.));
#93=DIRECTION('ref_axis',(1.,0.,0.));
#94=DIRECTION('center_axis',(0.,-2.22044604925031E-16,1.));
#95=DIRECTION('ref_axis',(1.,0.,0.));
#96=CARTESIAN_POINT('',(0.,0.,0.));
#97=CARTESIAN_POINT('Origin',(0.,-2.60902410786912E-16,1.175));
#98=CARTESIAN_POINT('',(-3.175,-5.52638511207779E-17,2.));
#99=CARTESIAN_POINT('Origin',(0.,-4.44089209850063E-16,2.));
#100=CARTESIAN_POINT('',(-4.,-7.50761130445853E-16,1.175));
#101=CARTESIAN_POINT('Origin',(-3.175,-6.49727769516196E-16,1.175));
#102=CARTESIAN_POINT('Origin',(0.,-2.60902410786912E-16,1.175));
#103=CARTESIAN_POINT('Origin',(0.,0.,0.));
#104=CARTESIAN_POINT('',(-4.,-4.89858719658941E-16,-1.08770485875751E-31));
#105=CARTESIAN_POINT('',(-4.,-4.89858719658941E-16,-1.08770485875751E-31));
#106=CARTESIAN_POINT('Origin',(0.,0.,0.));
#107=CARTESIAN_POINT('Origin',(0.,-4.44089209850063E-16,2.));
#108=CARTESIAN_POINT('Origin',(0.,0.,0.));
#109=UNCERTAINTY_MEASURE_WITH_UNIT(LENGTH_MEASURE(0.01),#113,
'DISTANCE_ACCURACY_VALUE',
'Maximum model space distance between geometric entities at asserted c
onnectivities');
#110=UNCERTAINTY_MEASURE_WITH_UNIT(LENGTH_MEASURE(0.01),#113,
'DISTANCE_ACCURACY_VALUE',
'Maximum model space distance between geometric entities at asserted c
onnectivities');
#111=(
GEOMETRIC_REPRESENTATION_CONTEXT(3)
GLOBAL_UNCERTAINTY_ASSIGNED_CONTEXT((#109))
GLOBAL_UNIT_ASSIGNED_CONTEXT((#113,#115,#116))
REPRESENTATION_CONTEXT('','3D')
);
#112=(
GEOMETRIC_REPRESENTATION_CONTEXT(3)
GLOBAL_UNCERTAINTY_ASSIGNED_CONTEXT((#110))
GLOBAL_UNIT_ASSIGNED_CONTEXT((#113,#115,#116))
REPRESENTATION_CONTEXT('','3D')
);
#113=(
LENGTH_UNIT()
NAMED_UNIT(*)
SI_UNIT(.MILLI.,.METRE.)
);
#114=(
LENGTH_UNIT()
NAMED_UNIT(*)
SI_UNIT($,.METRE.)
);
#115=(
NAMED_UNIT(*)
PLANE_ANGLE_UNIT()
SI_UNIT($,.RADIAN.)
);
#116=(
NAMED_UNIT(*)
SI_UNIT($,.STERADIAN.)
SOLID_ANGLE_UNIT()
);
#117=SHAPE_DEFINITION_REPRESENTATION(#118,#119);
#118=PRODUCT_DEFINITION_SHAPE('',$,#121);
#119=SHAPE_REPRESENTATION('',(#68),#111);
#120=PRODUCT_DEFINITION_CONTEXT('part definition',#125,'design');
#121=PRODUCT_DEFINITION('ai03 feet','ai03 feet v3',#122,#120);
#122=PRODUCT_DEFINITION_FORMATION('',$,#127);
#123=PRODUCT_RELATED_PRODUCT_CATEGORY('ai03 feet v3','ai03 feet v3',(#127));
#124=APPLICATION_PROTOCOL_DEFINITION('international standard',
'automotive_design',2009,#125);
#125=APPLICATION_CONTEXT(
'Core Data for Automotive Mechanical Design Process');
#126=PRODUCT_CONTEXT('part definition',#125,'mechanical');
#127=PRODUCT('ai03 feet','ai03 feet v3',$,(#126));
#128=PRESENTATION_STYLE_ASSIGNMENT((#130));
#129=PRESENTATION_STYLE_ASSIGNMENT((#131));
#130=SURFACE_STYLE_USAGE(.BOTH.,#132);
#131=SURFACE_STYLE_USAGE(.BOTH.,#133);
#132=SURFACE_SIDE_STYLE('',(#134));
#133=SURFACE_SIDE_STYLE('',(#135));
#134=SURFACE_STYLE_FILL_AREA(#136);
#135=SURFACE_STYLE_FILL_AREA(#137);
#136=FILL_AREA_STYLE('Aluminum - Flat',(#138));
#137=FILL_AREA_STYLE('Rubber - Soft',(#139));
#138=FILL_AREA_STYLE_COLOUR('Aluminum - Flat',#140);
#139=FILL_AREA_STYLE_COLOUR('Rubber - Soft',#141);
#140=COLOUR_RGB('Aluminum - Flat',0.996078431372549,0.996078431372549,1.);
#141=COLOUR_RGB('Rubber - Soft',0.152941176470588,0.152941176470588,0.152941176470588);
ENDSEC;
END-ISO-10303-21;
